Akordy

taby pro ich bin nicht ich

5. července 2007 v 14:16 | Lucy
INTRO: |-----------------------7-|

|------8-7--0------8-7----|

|--x-9---------x-9--------|

|-------------------------|

|-------------------------|

|-------------------------|



|---------------------------------|

|---------------------------------|

|---------55555555----------------|

|-22222222555555555555555500000000

|-22222222333333335555555500000000

|-00000000--------3333333322222222





Chorus:|----------------------------------|

|----------------------------------|

|-2222222222222222-----------------|

|-22222222222222222222222222222222-

|-00000000000000002222222222222222-

|-----------------0000000000000000-



|----------------------------------|

|----------------------------------|

|-2222222222222222-----------------|

|-22222222222222225555555500000000-

|-00000000000000005555555500000000-

|-----------------3333333322222222-



|----------------------------------|

|----------------------------------|

|-44444444--------22222222---------|

|-44444444000000002222222255550000-

|-22222222000000000000000055550000-

|---------22222222--------33332222-



|----------------------------------|

|----------------------------------|

|-44444444--------2222222222222222-|

|-44444444000000002222222222222222-

|-22222222000000000000000000000000-

|---------22222222-----------------





Vers: |----------------------------------|

|----------------------------------|

|---------55555555-----------------|

|-22222222555555555555555500000000-

|-22222222333333335555555500000000-

|-00000000--------3333333322222222-





Chorus + Vers



Bridge:|------------------------- |-----------|

|------------------------- |-----------|

|----------------55554444- |-----------|

|-222--222--222--55554444- |-22222222--|

|-222--222--222--33332222- |-22222222--|

|-000--000--000----------- 2X |-00000000--| 3X



Vers 6x |---

|---

|---

|-2~

|-2~

|-0~

Hilf mir fliegen

5. července 2007 v 14:15 | Lucy
POZOR!!! KAPODASTER NA 1. PRAŠEC!!!

DIch bin hierAirgendwoGgelander
DKann nicht mehrAsagen,wer ichGbin
HmiHab die Erinnerung verlorenG
DDie BilderAgeben keinenGSinn
ABring mich zuruck,bring mich nachGHaus
AIch schaff´s nicht allein hierGraus

Refren:
Komm und hilf mirDflieAgenG
Leih mir deine DFluAgelG
Ich tausch sie gegen dieAWelt
Gegen alles,was michHmihalt
Ich taushsie heuteGNacht
Gegen alles,was ich habD

Erzahl mir alle Lugen
Mach es so,dass ich es glaub
Sonst krieg ich keine Luft merh
Und diese Stille macht mich taub
Nur graue Mauern und kein Licht
Alles hier ist ohne mich

Refren:
Komm und hilf mir fliegen.....

GIch find mich gier nicht wieder
Erken mich selbst nicht mehr
Komm und zieh mich raus hier
Ich gib alles dafur her
Ich habAFernwehG
und will zuruck
Entfern mich immmer weiter
Mit jedenAAugenblick

DIch bin hierAirgendwoGgelandet

Refren:
Kommm und hilf mir fliegen
Leih mir deine Flugel
Ich tausch sie gegen die Welt
Gegen alles,was mich halt
Ich tausch sie heute Nacht

Refren:
komm und hilf mir fliegen.....

DGegenAalles,was ichGhab

gegen meine willen

5. července 2007 v 14:14 | Lucy
Intro:

E|-----------------------------------|

B|-----------------------------------|

G|7/9--9--9--9--9-9-9\7--7--7--7--7-7|

D|7/9--9--9--9--9-9-9\7--7--7--7--7-7|

A|5/7--7--7--7--7-7-7\5--5--5--5--5-5|

E|--------------------------7--------|x2



1 zwrotka:

1 Vers:

Wie soll es mir schon geh'n...

E|-----------------------------------|

B|-----------------------------------|

G|7/9--9--9--9--9-9-9\7--7--7--7--7-7|

D|7/9--9--9--9--9-9-9\7--7--7--7--7-7|

A|5/7--7--7--7--7-7-7\5--5--5--5--5-5|

E|--------------------------7--------|x3



sagt es mir jetzt in mein Gesicht... sagt wof? alles hier zerbricht...

E|-----------------------------------------------------------------

B|-----------------------------------------------------------------

G|4--4--4/6--6--6-6/9--9--9\8--8--8-8\4--4--4/6--6--6-6/9--9--9/11-

D|4--4--4/6--6--6-6/9--9--9\8--8--8-8\4--4--4/6--6--6-6/9--9--9/11-

A|2--2--2/4--4--4-4/7--7--7\6--6--6-6\2--2--2/4--4--4-4/7--7--9/9--

E|-----------------------------------------------------------------



es macht mich fertig...

E|------------|

B|------------|

G|2--2--2--2-2|

D|2--2--2--2-2|

A|0--0--0--0-0|

E|------------|



ref.:

chorus:

C e

es ist gegen meinen Willen

C e

es ist gegen jeden Sinn

C e

warum m?hr euch jetzt trennen

D A

eure Namen umbenennen

C e

unser Ende ist schon hier

C e

und ihr sagt es nicht vor mir

C e

ich hasse euch daf? D A

es ist gegen meinen Willen

C D

dagegen - bin dagegen

taby pro Rette Mich

5. července 2007 v 14:12 | Lucy
INTRO:

E|---------------------------------------------------------------|

B|------0---------------0---------------0---------------0--------|

G|----4---4---4-------4---4---4-------4---4---4-------4---4---4--|

D|--2-------2---2---2-------2---2---2-------2---2---2-------2---2|

A|---------------------------------------------------------------|

E|0---------------0---------------0---------------0--------------|



VERSE:

Zum ersten mal alleine in unserem Versteck...

E|---------------------------------------------------------------|

B|------0-----------------------------------------------------0--|

G|----0-------0-------0-------0-------0-------0-------0-----4(4)4|

D|--2-------4---4---4---4---4---4---4---4---4---4---4-----2------|

A|--------2-----------------------2-------3-------5-----0--------|

E|0---------------3-------2--------------------------------------|



ich seh noch unseren Namen an der Wand...

E|---------------------------------------------------------------|

B|------0-----------------------------------------------------0--|

G|----0-------0-------0-------0-------0-------0-------0-----4(4)4|

D|--2-------4---4---4---4---4---4---4---4---4---4---4-----2------|

A|--------2-----------------------2-------3-------5-----0--------|

E|0---------------3-------2--------------------------------------|



ich wollt dir alles anvertrauen...

E|---------------------------------------------------------------|

B|------0-------------------------------0------------------------|

G|----0-------0-------0-------0-------0-------0-------0-------0--|

D|--2-------4---4---4---4---4---4---2-------4---4---4---4---4---4|

A|--------2-------------------------------2----------------------|

E|0---------------3-------2-------0---------------3-------2------|



komm zurück nimm mich mit...

E|---------------------------------------------------------------|

B|------1---------------0---------------1---------0--------------|

G|----0---0---0-------0---0---0-------0---0---0------------------|

D|--2-------2---2---2-------2---2---2-------2---2----------------|

A|0---------------3---------------0------------------------------|

E|---------------------------------------------------------------|



CHORUS:

komm und rette mich ich verbrenne innerlich...

E|---------------------------------------------------------------|

B|------3---------------3---------------3---------------3--------|

G|----0---0---0-------0---0---0-------0---0---0-------0---0---0--|

D|--4-------4---4---4-------4---4---4-------4---4---4-------4---4|

A|3---------------5-------------------------------2--------------|

E|--------------------------------0------------------------------|



komm und rette mich ich schaffs nich ohne dich...

E|---------------------------------------------------------------|

B|------3---------------3---------------3---------------2--------|

G|----0---0---0-------0---0---0-------2---2---2-------2---2---2--|

D|--4-------4---4---4-------4---4---2-------2---2---2-------2---2|

A|3---------------5---------------0---------------0--------------|

E|---------------------------------------------------------------|



komm und rette mich...





E|-------------------------------|

B|------3---------------3--------|

G|----0---0---0-------0---0---0--|

D|--4-------4---4---4-------4---4|

A|3---------------5--------------|

E|-------------------------------|



rette mich, rette mich...

E|---------------------------------------------------------------|

B|------0-------------------------------0------------------------|

G|----4-------0-------0-------0-------4-------0-------0-------0--|

D|--2-------4---4---4---4---4---4---2-------4---4---4---4---4---4|

A|--------2-------------------------------2----------------------|

E|0---------------3-------2-------0---------------3-------2------|

Taby pro Spring nicht

5. července 2007 v 14:10 | Lucy
Intro:

--------4----------2-----------0-----------------------------|

-----------5----------4-----------2---------4--0--2----------|

--------------------------------------------------2----------|

--------------------------------------------------2----------|

--4----------------------------------------------------------|

-------------------------------------------------------------|



Verse:

Uber den Dachern,ist es so kalt, und so still...

------------------------------------------------------------------|

--------5-----------5----------2-----------2----------------------|

------6---6-------6---6------2---2-------2---2---------------- ---|4x

----6-------6---6-------6---2-------2---2-------2-----------------|

--4-----------4-----------0-----------0---------------------------|

------------------------------------------------------------------|



Chorus:

Ich schrei in die Nacht für dich,lass mich nicht im Stich...

------------------------------------------------------------|

--------2-----------4-----------5-----------5---------------|

------2---2-------4---4-------6---6-------6---6-------------| {2x

----2-------2---4-------4---6-------6---6-------6-----------|

--0-----------2-----------4-----------4---------------------|

------------------------------------------------------------|



Erinner Dich, an Dich und mich...

------------------------------------------------------------|

--------2-----------4-----------------------2---------------|

------2---2-------4---4---------2---------2---2-------------|

----2-------2---4-------4-----4---4-----2-------2-----------|

--0-----------2-------------4---------0---------------------|

--------------------------2----------4----------------------|



bitte, spring nicht...

--0---------------------------------------------------------|

--4----------5-----------5-----------2-----------2----------|

--4--------6---6-------6---6-------2---2-------2---2--------|

--4------6-------6---6-------6---2-------2---2-------2------|

--2----4-----------4-----------0-----------0----------------|

--0---------------------------------------------------------|

Taby pro DDM

5. července 2007 v 13:49 | Lucy
 A

2x:

1:-----------------------|

2:-----------------------|

3:-1112-2-1--------------|

4:-2222-2-2---2223-3-2---|

5:-2222-2-2---3333-3-3---|

6:------------3333-3-3---|



B

3x: 1x: 3x: 1x:

1:----------------------|----------------------|----------------------|----------------------|

2:----------------------|-------------0-00-00--|----------------------|----------------------|

3:-1112-2-1-------------|-------------0-00-00--|-1112-2-1-------------|----------------------|

4:-2222-2-2---2223-3-2--|-7777-7-7----0-00-00--|-2222-2-2---2223-3-2--|----------------------|

5:-2222-2-2---3333-3-3--|-7777-7-7----2-22-22--|-2222-2-2---3333-3-3--|-5555-5-5----4444-4-4-|

6:------------3333-3-3--|-5555-5-5----3-33-33--|------------3333-3-3--|-5555-5-5----5555-5-5-|





C(Chorus 1)



1:-3-----3-----3---|-2-----2-----2---|-3-----3-----3---|-2-----2-----2---|

2:---3-----3-----3-|---3-----3-----3-|---5-----5-----5-|---3-----3-----3-|

3:-----5-----5-----|-----2-----2-----|-----4-----4-----|-----4-----4-----|

4:-----------------|-----------------|-----------------|-----------------|

5:-----------------|-----------------|-----------------|-----------------|

6:-----------------|-----------------|-----------------|-----------------|



1:-3-----3-----3---|-2-----2-----2---|-2-----2-----2---|-3-----3-----3---|

2:---3-----3-----3-|---3-----3-----3-|---3-----3-----3-|---5-----5-----5-|

3:-----5-----5-----|-----2-----2-----|-----4-----4-----|-----4-----4-----|

4:-----------------|-----------------|-----------------|-----------------|

5:-----------------|-----------------|-----------------|-----------------|

6:-----------------|-----------------|-----------------|-----------------|



1:-3-----3-----3---|-2...---------------------------------------

2:---3-----3-----3-|-3---------------------------------------

3:-----5-----5-----|-2--------------------------------------

4:-----------------|-------------------------------------

der letzte tag

5. července 2007 v 13:45 | Lucy
TOKIO HOTEL
Der letze Tag

F#miJetzt sind wirGwieder hier.
F#miBei dir oben aufmGDach.
F#miDie ganze WeltGunten kannfn mir aus.F#mi
Untergehen heuteGNacht.
F#Sind wir zum letzen MalGzusamen?
F#Sar grad erstGanfan.

R: Wann dieserF#Tag Dder Aletze Eist,
BitteF#DgesA mir nochE nicht,
Wenn das dasF# EeeDnde Afúr uns Eist,
F#Sags nicht,E noch F#nicht.

Iss etwa schon dr Tagnanách,
wo alle Uhren stillstehn,
Wosam Horizont zu Ende ist,
und alle Traume schlafen gehn?
Sind wir zum letzen Mal zusamen?
Sar grad erst ánfan. R

Das ist der letze Tag,
das ist der letze Tag.
Ist das der letze Rigón,
bei dir oben aufm dach?
Ist das der letze Sigó,
und unsere letze Nacht?
Hat unsere Ende angenfangen?
Egal, wir sind noch zusam.

R: Wann dieser Tag der letze ist,
Bitte ságes mir noch nicht,
Wenn das das Ende fúr uns ist,
Sags nicht
R: Wann dieser Tag der letze ist,
Bitte ságes mir noch nicht,
und wenn du bleibst dann sterbe ich,
noch nicht, noch nicht.

Ist das der letze Rigón,
bei dir oben aufm dach?
Ist das der letze Sigó,
sags nicht, noch nicht.
Das ist der letze tag.

no.....

15. dubna 2006 v 15:51
ahojda lidičky...tak jsem sem hodila nějaký akordy.Až na to že tomu vůbec nnerozumím.prej to dělala nějaká 16.ka tag to nemusí bejt přesný. ale někdo to vysvětlil takhle

,,hele voni totiž tabulátory vyjadřujou akordy.řádky vyjadřujou strunu na který se to hraje a ty čísla jak tam sou-ty zase určujou v jakym políčku!!!!abyste tomu rozuměli"

tag se vomlouvám že je to takový nesrozumitelný

unendlichkeit akordy

15. dubna 2006 v 15:48
<!--StartFragment-->Tuning:E

e|---------------------------------------------------------------------------|
B|---------------------------------------------------------------------------|
G|---------------------------------------------------------------------------|
D|-----2--------------------5--------5-----5---------------------------------|
A|-0------0-------3------3-----3--3-----3------------------------------------|
E|-------------1-------1-----------------------------------------------------|

This the little melody that plays over the top of the song,not sure if its a guitar or
but i sounds cool
e|-----------------------------------------------------------------------------|
B|----5~--5 (bend up then release)---------------------------------------------|
G|-----------------------------------5------------------/5---------------------|
D|----------------------------------------5~-----------------3----2~-----------|
A|-----------------------------------------------------------------------------|
E|-----------------------------------------------------------------------------|
Last Chord
e|------------------------------------------------------------------------------|
B|------------------------------------------------------------------------------|
G|------------------------------------------------------------------------------|
D|---2--------------------------------------------------------------------------|
A|---0--------------------------------------------------------------------------|
E|------------------------------------------------------------------------------|


| / slide up
| \ slide down
| h hammer-on
| p pull-off
| ~ vibrato
| + harmonic
| x Mute note

leb' die sekunde akordy

15. dubna 2006 v 15:47
<!--StartFragment-->Intro:
E|-------------------------------|
B|-------------------------------|
G|-------------------------------|
D|7-7-7-7-7-7-7------------------|
A|7-7-7-7-7-7-7------------------|
E|5-5-5-5-5-5-5-4b--0-0-3b--0-0-0|x10


Zwrotka:
Vers:
Przed zwrotk&#261; gra si&#281; 1x:
Before the vers you play one time:
E|---------------------------------------------------------------|
B|---------------------------------------------------------------|
G|7---7-4---4-4-4-7---7-4---4-4-4-7---7-4---4-4-4----------------|
D|7---7-4---4-4-4-7---7-4---4-4-4-7---7-4---4-4-4-4-4-4-4-4-4-4-4|
A|5---5-2---2-2-2-5---5-2---2-2-2-5---5-2---2-2-2-4-4-4-4-4-4-4-4|
E|------------------------------------------------2-2-2-2-2-2-2-2|x1

Ab heute sind die Tage nur noch halb so lang...
E|---------------------------------------------------------------|
B|---------------------------------------------------------------|
G|7---7-4---4-4-4-7---7-4---4-4-4-7---7-4---4-4-4----------------|
D|7---7-4---4-4-4-7---7-4---4-4-4-7---7-4---4-4-4-4-4-4-4-4-4-4-4|
A|5---5-2---2-2-2-5---5-2---2-2-2-5---5-2---2-2-2-4-4-4-4-4-4-4-4|
E|------------------------------------------------2-2-2-2-2-2-2-2|x3

´tschuldigung Ich hab mal eben nachgedacht...
E|---------------------------------------------------------------|
B|---------------------------------------------------------------|
G|7---7-4---4-4-4-7---7-4---4-4-4-7---7-4---4-4-4----------------|
D|7---7-4---4-4-4-7---7-4---4-4-4-7---7-4---4-4-4-4--------------|
A|5---5-2---2-2-2-5---5-2---2-2-2-5---5-2---2-2-2-4--------------|
E|------------------------------------------------2--------------|x1


Refren:
Chorus:
E|---------------------------------------------------------------|
B|---------------------------------------------------------------|
G|--------------------------------7-7-7-7-7-7-7-7-7-7-7-7-7-7-7-7|
D|7-7-7-7-7-7-7-7-7-7-7-7-7-7-7-7-7-7-7-7-7-7-7-7-7-7-7-7-7-7-7-7|
A|7-7-7-7-7-7-7-7-7-7-7-7-7-7-7-7-5-5-5-5-5-5-5-5-4-4-4-4-4-4-4-4|
E|5-5-5-5-5-5-5-5-4-4-4-4-4-4-4-4--------------------------------|

E|---------------------------------------------------------------|
B|---------------------------------------------------------------|
G|--------------------------------7-7-7-7-7-7-7-7-7-7-7-7-7-7-7-7|
D|7-7-7-7-7-7-7-7-7-7-7-7-7-7-7-7-7-7-7-7-7-7-7-7-7-7-7-7-7-7-7-7|
A|7-7-7-7-7-7-7-7-7-7-7-7-7-7-7-7-5-5-5-5-5-5-5-5-4-4-4-5-5-5-5-5|
E|5-5-5-5-5-5-5-5-4-4-4-4-4-4-4-4--------------------------------|

E|---------------------------------------------------------------|
B|---------------------------------------------------------------|
G|--------------------------------7-7-7-7-7-7-7-7-7-7-7-7-7-7-7-7|
D|7-7-7-7-7-7-7-7-7-7-7-7-7-7-7-7-7-7-7-7-7-7-7-7-7-7-7-7-7-7-7-7|
A|7-7-7-7-7-7-7-7-7-7-7-7-7-7-7-7-5-5-5-5-5-5-5-5-4-4-4-4-4-4-4-4|
E|5-5-5-5-5-5-5-5-4-4-4-4-4-4-4-4--------------------------------|

E|---------------------------------------------------------------|
B|---------------------------------------------------------------|
G|---------------------------------------------------------------|
D|4-4-4-4-4-4-4-4-2-2-2-2-2-2-2-2-3-3-3-3-3-3-3-3-5-5-5-5-5-5-5-5|
A|4-4-4-4-4-4-4-4-2-2-2-2-2-2-2-2-3-3-3-3-3-3-3-3-5-5-5-5-5-5-5-5|
E|2-2-2-2-2-2-2-2-0-0-0-0-0-0-0-0-1-1-1-1-1-1-1-1-3-3-3-3-3-3-3-3|


Poten si&#281; powtarza...
Then in this order...
Intro x2
Zwrotka x1 (Vers x1)
Refren x1 (Chorus x1)


Przej&#347;cie:
Interlude:
Die Zeit läuft...
E|---------------------------------------------------------------|
B|---------------------------------------------------------------|
G|7-7-7-7-7-7-7-7-7-7-7-7-7-7-7-7-7-7-7-7-7-7-7-7-7-7-7-7-7-7-7-7|
D|7-7-7-7-7-7-7-7-7-7-7-7-7-7-7-7-7-7-7-7-7-7-7-7-7-7-7-7-7-7-7-7|
A|5-5-5-5-5-5-5-5-5-5-5-5-5-5-5-5-4-4-4-4-4-4-4-4-4-4-4-4-4-4-4-4|
E|---------------------------------------------------------------|

E|---------------------------------------------------------------|
B|---------------------------------------------------------------|
G|9-9-9-9-9-9-9-9-9-9-9-9-9-9-9-9-3-3-3-3-3-3-3-3-5-5-5-5-5-5-5-5|
D|9-9-9-9-9-9-9-9-9-9-9-9-9-9-9-9-3-3-3-3-3-3-3-3-5-5-5-5-5-5-5-5|
A|7-7-7-7-7-7-7-7-7-7-7-7-7-7-7-7-1-1-1-1-1-1-1-1-3-3-3-3-3-3-3-3|
E|---------------------------------------------------------------|


Intro x5
Refren x1 (Chorus x1)
Intro x4 - z czego za 4-tym razem ko&#324;czy si&#281;: The last part:
E|-------------------------------|
B|-------------------------------|
G|-------------------------------|
D|7-7-7-7-7-7-7------------------|
A|7-7-7-7-7-7-7------------------|
E|5-5-5-5-5-5-5-4b--0-0-3b-------|

schwartz

15. dubna 2006 v 15:46
<!--StartFragment-->(it's played on a Bass guitar, but you can play it on a guitar to)
E|-------------------------------|
B|-------------------------------|
G|----0--------------------------|
D|1-----1-0---0---------------0--|
A|--------------1---1-1-0--------|
E|------------------------3-----3|x9

po 9-tym razie to:
after the 9-th time:
E|-------------------------------|
B|-------------------------------|
G|----3-----3-------3-------3----|
D|1-----1-----1-0-----0-0-----0--|
A|-------------------------------|
E|-------------------------------|x1

Zamiast tej kwestii mo&#380;na gra&#263;:
Instead of thi you can play:
E|-------------------------------|
B|3---3-3-3---3-3---3-3-3-3---3--|<-- najlepiej (najwygodniej) trzyma&#263; ma&#322;y
G|3---3-0-0---0-3---3-3-0-0---0--| palec ca&#322;y czas na tej strunie...
D|1---1-3-------1---1-1-3--------| its most comfortable to put your pinky
A|-------------------------------| in this position...
E|-------------------------------|x8

E|-------------------------------|
B|3---3-----3-3-3-----3-3---3-3-3|<-- - | | -
G|3---3-----3-3-3-----3-3---3-3-3|
D|1---1-----1-1-0-----0-0---0-0-0|
A|-------------------------------|
E|-------------------------------|x1
Gitarka (Tom) wchodzi po pierwszej (1 raz zagranej) kwestii basa i dlatego tam pisze x8
The guitar (Tom) begins to play after 1 part played by the Bass thats why it's x8


Refren (Chorus):
Wersja 1 (Version 1):
Der Blick zurück ist schwarz...
E|-------------------------------|
B|-------------------------------|
G|5---5---3---3-2---2-2-2---2-2-2|
D|3---3---1---1-0---0-0-0---0-0-0|
A|-------------------------------|
E|-------------------------------|x3

E|-------------------------------|
B|-------------------------------|
G|3---3-----3-3-3-----3-3---3-3-3|
D|1---1-----1-1-0-----0-0---0-0-0|
A|-------------------------------|
E|-------------------------------|x1

Wersja 2 (Version 2):
Der Blick zurück ist schwarz...
E|-------------------------------|
B|-------------------------------|
G|10--10--8---8-7---7-7-7---7-7-7|
D|10--10--8---8-7---7-7-7---7-7-7|
A|8---8---6---6-5---5-5-5---5-5-5|
E|-------------------------------|x3

E|-------------------------------|
B|-------------------------------|
G|8---8-----8-8-8-----8-8---8-8-8|
D|8---8-----8-8-8-----8-8---8-8-8|
A|6---6-----6-6-5-----5-5---5-5-5|
E|-------------------------------|x1

Grajcie albo 1 albo 2 wersje... To wsumie to samo,
ale dla waszej wygody da&#322;em obydwie (do wyboru do koloru :D)
Play the version you find more comfortable...

schrei akordy

15. dubna 2006 v 15:45
<!--StartFragment-->e-----------------x-x--| |-------|
C--------2-3-0-2--x-x--| |-------|
G--7-7------------x-x--| |--7-3--|
D--7-7------------x-x--| x4 |--7-3--|
A--5-5------------x-x--| |--5-1--|
E--5-5------------x-x--| |--5-1--|

Bass Guitar
e---------------------------||--8-5------5------|
C---------------------------||-------------5----|
G---------------------------||------------------|
D---------------------------||------------------|
A---------------------------||------------------|
E--5-5-55-55-5--1-1-11-11-1-||------------------|

Bass Guitar
e--------------------------||--8-5------5------|
C--------------------------||-------------5----|
G--------------------------||------------------|
D--------------------------||------------------|x3
A--------------------------||------------------|
E-5-5-55-55-5--1-1-11-11-1-||------------------|
Du stehst auf und kriegst gesagt wohin du gehen sollst
Wenn du da bist hörst du auch noch was du denken sollst
Danke, das war mal wieder echt 'n geiler Tag

Bass Guitar
e--------------------------||--8-5------5------|
C--------------------------||-------------5----|
G--------------------------||------------------|
D--------------------------||------------------|
A--------------------------||------------------|
E-5-5-55-55-5-----1-1-1----||------------------|
Du sagst nichts und keiner fragt dich: Sag mal, willst du das

e--------------------|
C--------------------|
G--------------------|
D-55555555-7---------|x2
A-55555555-7---------|
E-33333333-5---------|
Nein - nein - nein - nananana nein
Nein - nein - nein - nananana nein


e-----------------| |-------------------|
C--------3-2-0-2--| |-------------------|
G--7-7------------| |-------------------|
D--7-7------------| x3 |--3-3-3-5--3-5-7---|
A--5-5------------| |--3-3-3-5--3-5-7---|
E--5-5------------| |--1-1-1-3--1-3-5---|
Schrei! Bis du du selbst bist
Schrei! Und wenn es das Letzte ist
Schrei! Auch wenn es weh tut
Schrei so laut du kannst!

e-----------------| |-------------------|
C--------3-2-0-2--| |-------------------|
G--7-7------------| |-------------------|
D--7-7------------| x3 |--3-3-3-5--3-5-7---|
A--5-5------------| |--3-3-3-5--3-5-7---|
E--5-5------------| |--1-1-1-3--1-3-5---|
Schrei! Bis du du selbst bist
Schrei! Und wenn es das Letzte ist
Schrei! Auch wenn es weh tut
Schrei so laut du kannst

Bass Guitar
e--------------------------||--8-5------5------|
C--------------------------||-------------5----|
G--------------------------||------------------|
D--------------------------||------------------|
A--------------------------||------------------|
E-5-5-55-55-5--1-1-11-11-1-||------------------|
Schrei! (Schrei so laut du kannst)

Bass Guitar
e--------------------------||--8-5------5------|
C--------------------------||-------------5----|
G--------------------------||------------------|
D--------------------------||------------------|x3
A--------------------------||------------------|
E-5-5-55-55-5--1-1-11-11-1-||------------------|
Pass auf, Rattenfänger lauern überall
Verfolgen dich und greifen nach dir aus'm Hinterhalt
Versprechen dir alles wovon du nie geträumt hast


Bass Guitar
e--------------------------||--8-5------5------|
C--------------------------||-------------5----|
G--------------------------||------------------|
D--------------------------||------------------|
A--------------------------||------------------|
E-5-5-55-55-5-----1-1-1----||------------------|
Und irgendwann ist es zu spät und dann brauchst du das




e--------------------|
C--------------------|
G--------------------|
D-55555555-7---------|x2
A-55555555-7---------|
E-33333333-5---------|
Nein - nein - nein - nananana nein
Nein - nein - nein - nananana nein



e-----------------| |-------------------|
C--------3-2-0-2--| |-------------------|
G--7-7------------| |-------------------|
D--7-7------------| x3 |--3-3-3-5--3-5-7---|
A--5-5------------| |--3-3-3-5--3-5-7---|
E--5-5------------| |--1-1-1-3--1-3-5---|
Schrei! Bis du du selbst bist
Schrei! Und wenn es das Letzte ist
Schrei! Auch wenn es weh tut
Schrei so laut du kannst!

e-----------------| |-------------------|
C--------3-2-0-2--| |-------------------|
G--7-7------------| |-------------------|
D--7-7------------| x3 |--3-3-3-5--3-5-7---|
A--5-5------------| |--3-3-3-5--3-5-7---|
E--5-5------------| |--1-1-1-3--1-3-5---|
Schrei! Bis du du selbst bist
Schrei! Und wenn es das Letzte ist
Schrei! Auch wenn es weh tut
Schrei so laut du kannst

First Guitar Second Guitar
e------------------||--5-6-3-5--|
C------------------||-----------|
G--7--7--x7-x7-x7--||-----------|
D--7--7--x7-x7-x7--||-----------|
A--5--5--x5-x5-x5--||-----------|
E------------------||-----------|
Schrei!

First Guitar Second Guitar
e--------------------------||--5-6-3-5--|
C--------------------------||-----------|
G--7-7-77777-8-5-5-555555--||-----------|
D--7-7-77777-8-5-5-555555--||-----------|x2
A--5-5-55555-6-3-3-333333--||-----------|
E--------------------------||-----------|
Zurück zum Nullpunkt - jetzt kommt eure Zeit
Lasst sie wissen, wer ihr wirklich seid

Guitar
e-----------|
C--2-3-0-2--|
G-----------|
D-----------|x4
A-----------|
E-----------|
Schrei Schrei
^(Schrei so laut du kannst)

Guitar Distortion Guitar
e---------------|---| |---------------|---|
C--2-3-0-2-(x4)-|-5-| |--2-3-0-2-(x4)-|-5-|
G---------------|---| |---------------|---|
D---------------|---| |---------------|---|
A---------------|---| |---------------|---|
E---------------|---| |---------------|---|
Schrei Schrei - Schrei - Schrei -
^(Schrei so laut du kannst)

e--x--x--|
C--x--x--|
-Jetzt ist unsere Zeit... G--x--x--|
D--x--x--|
A--x--x--|
E--x--x--|


e-----------------| |-------------------|
C--------3-2-0-2--| |-------------------|
G--7-7------------| |-------------------|
D--7-7------------| x3 |--3-3-3-5--3-5-7---|
A--5-5------------| |--3-3-3-5--3-5-7---|
E--5-5------------| |--1-1-1-3--1-3-5---|
Schrei! Bis du du selbst bist
Schrei! Und wenn es das Letzte ist
Schrei! Auch wenn es weh tut
Schrei so laut du kannst!

e-----------------| |-------------------|
C--------3-2-0-2--| |-------------------|
G--7-7------------| |-------------------|
D--7-7------------| x3 |--3-3-3-5--3-5-7---|
A--5-5------------| |--3-3-3-5--3-5-7---|
E--5-5------------| |--1-1-1-3--1-3-5---|
Schrei! Bis du du selbst bist
Schrei! Und wenn es das Letzte ist
Schrei! Auch wenn es weh tut
Schrei so laut du kannst


Und jetzt Schweig!


e-----------| |-------------------|
C--2-3-0-2--| |-------------------|
G-----------| |-------------------|
D-----------| x6 |--3-3-3-5--3-5-7---|
A-----------| |--3-3-3-5--3-5-7---|
E-----------| |--1-1-1-3--1-3-5---|
Nein! Weil du du selbst bist
Nein! Und weil es das Letzte ist
Nein! Weil es so weh tut
Schrei so laut du kannst!


e-----------| |--------------------|
C--2-3-0-2--| |--------------------|
G-----------| |----------------7---|
D-----------| x6 |--3-3-3-5--3-5--7---|
A-----------| |--3-3-3-5--3-5--5---|
E-----------| |--1-1-1-3--1-3--5---|

Nein! - Nein! - Nein! - Nein! - Nein! - Nein!
Schrei so laut du kannst

- Schrei!


durch den monzum akordy

15. dubna 2006 v 15:43
Durch den monsum
EDas Fenster Cöffnet sich nicht Emehr
Hier drin ist es Cvoll von dir und Eleer
Und vor mir Cgeht die letzte Ami, GKerze aus

EIch warte Cschon ne EwigEkeit
Und endlich Cist es jetzt so Eweit
Da draußen Cziehn die schwarzen Asus4Wolken auAf

Ich muss durch den CMonsun
hinter die DWelt
ans Ende der EmiZeit
bis kein Regen mehr Hmifällt
Gegen den CSturm
am Abgrund entDlang
Und wenn ich nicht mehr Hmikann denk ich Emidaran
Irgendwann Cmaj7laufen wir Dzusammen
durch den E, C, (wieder, mit, sus4-Spielerei)Monsun
Dann Ewird alles Cgut

Der halbe CMond versinkt vor Emir
War der eben Cnoch bei dEir
Und hält er Cwirklich was er Amimir versprichtG

Ich weiß das Cich dich finden Ekann
Ich hör deinen CNamen im EOrkan (Echo!)
Und ich glaube denn Cmehr als glauben Asus4kann ich nichAt

Ich muss durch den CMonsun
hinter die DWelt
ans Ende der EmiZeit
bis kein Regen mehr Hmifällt
Gegen den CSturm
am Abgrund entDlang
Und wenn ich nicht mehr Hmikann denk ich Emidaran
Irgendwann Cmajlaufen wir zuDsammen
weil und einfach Eminichts mehr halten Hmikann
durch den C, DMonsun

Esus4Hey! E, Csus4, C, (Power-Geschrammel)
Esus4Hey!!!E, Csus4, C

Esus4Ich kämpEfe mich Csus4durch die CMächte
Esus4hinter Edieser Csus4, CTür
Esus4werde Esie beCsus4siegen Cund dann
Esus4führen sie Emich zu Csus4, Cdir



E Cmaj7 (klimper)
dann wird alles gut
E wird alles gutCmaj7
E dann wird alles gutCmaj7
E wird alles gutCmaj7

Ich muss durch den CMonsun
hinter die DWelt
ans Ende der EmiZeit
bis kein Regen mehr Hmifällt
Gegen den CSturm
am Abgrund entDlang
Und wenn ich nicht mehr Hmikann denk ich Emidaran
Irgendwann Claufen wir Dzusammen
weil und einfach Eminichts mehr halten Hmikann
durch den CMonsunD

rette mich akordy

15. dubna 2006 v 15:43

Emi


Zum Emiersten HmiMal alleG, F#ine
in EmiunseHmirem VerDsteckAmi
Ich Emiseh noch Hmiunsere GNamen an der F#Wand
Und Emiwisch´ Hmisie wieder D, Amiweg
EmiIch wollt´ dir Hmialles GanvertF#rauen
EmiWarum Hmibist du GabgehF#auen
Komm AmizurückC - nimm mich Ami, Cmit


CmDsus27 Dsjedochus2 notwendig) Em Hm
Komm und Cmi7rette Dsus2mich - ich Emiverbrenne innerHmilich
Komm und Cmi7rette Dsus2mich - ich Asus2schaff´s nicht ohne dich
Komm und Cmi7rette Dsus2mich
rette EmimichHmi, G, F#, (wieder, nur, die, Bass-Töne, über, Em)
EmiretteHmi michG, F#

(Strophe)
Unsere EmiTräume Hmiwaren geGlogenF#
und Emikeine HmiTräne D, Amiecht
EmiSag dass Hmidas nicht Gwahr F#ist
Emisag es mir Hmi, D, Amijetzt
EmiVielleicht Hmihörst du GirgendF#wo
EmiMein S.O.HmiS. im GRadiF#o
Hörst du Amimich C- hörst du mich Aminich´c

(Refrain)
Komm und Cmi7rette Dsus2mich - ich Emiverbrenne innerHmilich
Komm und Cmi7rette Dsus2mich - ich Asus2schaff´s nicht ohne dich
Komm und Cmi7rette Dsus2mich
Dich und Emimich
dich und Cmi7mich
dich und Dsus2mich
dich und Emimich

Ich Cmi7seh´ noch unsere Dsus2Namen und Emiwisch´ sie wieder Hmiweg
Unsere Cmi7Träume war´n gDsus2elogen und Emikeine Träne Hmiecht
Hörst du Cmi7mich - hörst du mich Dsus2nicht´...


beichte

15. dubna 2006 v 15:39
<!--StartFragment-->
E-----------------cis
-Es beginnt jeden Morgen,
---------------E
es klingelt um Sieben,
---------------cis
der Wecker und ich,
-----------------------E
bleib'n erst mal schön liegen,
-----------------cis------------------E
ich bin immer zu spät und im Sport 2. Wahl,
-------------------cis-----------------H
darum schreib ich "Fuck you" auf jeden Siegerpokal,
E-------------------------cis
-ich will dich nur für ne Nacht,
--------------------E
und fühl mich gut dabei,
-----------------cis
dass es alles so wahr,
----------------------E
um auch noch schön zu sein,
------------------cis------------------C
und ich frag mich ob ich in den Himmel komm,
-------------------H
so überhaupt nicht fromm,


----------------A
Hey Teufel komm raus,
---------------E
ich hab dich gesehen,
-------------E2------------------------cis
und noch die Hoffnung du wirst mich verstehen,
------------------A----------------cis
Hey Teufel kannst du meine Beichte lesen,
-------------H-------------------E
und dann mit Gott nochmal drüber reden,



Ich bin leider ehrlich,
auch wo's nicht passt,
und seit meiner Beichte beim Pastor verhasst,
ich weis das geht gar nicht doch es lag auf der Hand,
und dann hab ich meinem Bruder,
die Freundin ausgespannt,
man hat mir jede Lüge,
schon mal geglaubt,
und in meine leeren,
Versprechen vertraut,
und ich frag mich ob ich in den Himmel komm,
so überhaupt nicht fromm,

Hey Teufel komm raus,
ich hab dich gesehen,
und noch die Hoffnung du wirst mich verstehen,
Hey Teufel kannst du meine Beichte lesen,
und dann mit Gott,
Hey Teufel komm raus,
ich hab dich gesehen,
und noch die Hoffnung du wirst mich verstehen,
Hey Teufel kannst du meine Beichte lesen,
-------------H-------------------A-------------------H
und dann mit Gott nochmal drüber reden,


A
Bitte seid nicht zu gemein,
---------H
gebt mir noch ne Chance - oder zwei,
-----fis-----------------------------A------------H
oder lasst mich wenigstens der Engel in der Hölle sein,


--------------A
Scha la la la la
--------------E
Scha la la la la
--------------E2
Scha la la la la
--------------CCCCCCCCCCCCCCCC
Scha la la la laaaaaaaaaaaaa

Pykanie:
Picking:
--Aadd2-----------E---------------E3--------------C-C-C-C-C-C-C-C-C-C-C-C-C-C-C-C
E|---------------|---------------|---------------|---------------|---------------|
B|------0--------|------9--------|------7--------|---------------|---------------|
G|----2-----2---2|----9-----9---9|----9-----9---9|5-5-5-5-5-5-5-5|5-5-5-5-5-5-5-5|
D|--2---------2--|--9---------9--|--9---------9--|5-5-5-5-5-5-5-5|5-5-5-5-5-5-5-5|
A|0--------------|7--------------|6--------------|3-3-3-3-3-3-3-3|3-3-3-3-3-3-3-3|
E|---------------|---------------|---------------|---------------|---------------|


Hey Teufel komm raus,
ich hab dich gesehen,
und noch die Hoffnung du wirst mich verstehen,
Hey Teufel kannst du meine Beichte lesen,
und dann mit Gott,
Hey Teufel komm raus,
ich hab dich gesehen,
und noch die Hoffnung du wirst mich verstehen,
Hey Teufel kannst du meine Beichte lesen,
-------------H-------------------E----E2
und dann mit Gott nochmal drüber reden,


-------------------E---E2
Und hast du keinen Bock
-------------E---E2
dann lass es eben,
E------------------E2
-kannst ja mal überlegen

Dziwne chwyty:
Strange chords:
Aadd2
E|-0-|
B|-0-|
G|-2-|
D|-2-|
A|-0-|
E|-x-|

E2
E|-x-|
B|-9-|
G|-9-|
D|-9-|
A|-6-|
E|-x-|

E3
E|-x-|
B|-7-|
G|-9-|
D|-9-|
A|-6-|
E|-x-|


 
 

Reklama